  0
SECTION
  2
HEADER
  9
$ACADVER
  1
AC1015
  9
$ACADMAINTVER
 70
     6
  9
$DWGCODEPAGE
  3
ANSI_1254
  9
$INSBASE
 10
0.0
 20
0.0
 30
0.0
  9
$EXTMIN
 10
0.0
 20
0.0
 30
0.0
  9
$EXTMAX
 10
279.4
 20
215.9
 30
0.0
  9
$LIMMIN
 10
0.0
 20
0.0
  9
$LIMMAX
 10
279.4
 20
215.9
  9
$ORTHOMODE
 70
     0
  9
$REGENMODE
 70
     1
  9
$FILLMODE
 70
     1
  9
$QTEXTMODE
 70
     0
  9
$MIRRTEXT
 70
     1
  9
$LTSCALE
 40
1.0
  9
$ATTMODE
 70
     1
  9
$TEXTSIZE
 40
3.5
  9
$TRACEWID
 40
1.0
  9
$TEXTSTYLE
  7
Standard
  9
$CLAYER
  8
0
  9
$CELTYPE
  6
ByLayer
  9
$CECOLOR
 62
   256
  9
$CELTSCALE
 40
1.0
  9
$DISPSILH
 70
     0
  9
$DIMSCALE
 40
1.0
  9
$DIMASZ
 40
3.5
  9
$DIMEXO
 40
1.0
  9
$DIMDLI
 40
3.75
  9
$DIMRND
 40
0.0
  9
$DIMDLE
 40
0.0
  9
$DIMEXE
 40
1.0
  9
$DIMTP
 40
0.0
  9
$DIMTM
 40
0.0
  9
$DIMTXT
 40
3.5
  9
$DIMCEN
 40
2.5
  9
$DIMTSZ
 40
0.0
  9
$DIMTOL
 70
     0
  9
$DIMLIM
 70
     0
  9
$DIMTIH
 70
     1
  9
$DIMTOH
 70
     1
  9
$DIMSE1
 70
     0
  9
$DIMSE2
 70
     0
  9
$DIMTAD
 70
     1
  9
$DIMZIN
 70
     0
  9
$DIMBLK
  1

  9
$DIMASO
 70
     1
  9
$DIMSHO
 70
     1
  9
$DIMPOST
  1

  9
$DIMAPOST
  1

  9
$DIMALT
 70
     0
  9
$DIMALTD
 70
     3
  9
$DIMALTF
 40
0.0393700787
  9
$DIMLFAC
 40
1.0
  9
$DIMTOFL
 70
     1
  9
$DIMTVP
 40
0.0
  9
$DIMTIX
 70
     0
  9
$DIMSOXD
 70
     0
  9
$DIMSAH
 70
     0
  9
$DIMBLK1
  1

  9
$DIMBLK2
  1

  9
$DIMSTYLE
  2
ISO-25
  9
$DIMCLRD
 70
     0
  9
$DIMCLRE
 70
     0
  9
$DIMCLRT
 70
     0
  9
$DIMTFAC
 40
1.0
  9
$DIMGAP
 40
1.524
  9
$DIMJUST
 70
     0
  9
$DIMSD1
 70
     0
  9
$DIMSD2
 70
     0
  9
$DIMTOLJ
 70
     0
  9
$DIMTZIN
 70
     0
  9
$DIMALTZ
 70
     0
  9
$DIMALTTZ
 70
     0
  9
$DIMUPT
 70
     0
  9
$DIMDEC
 70
     2
  9
$DIMTDEC
 70
     2
  9
$DIMALTU
 70
     2
  9
$DIMALTTD
 70
     3
  9
$DIMTXSTY
  7
Standard
  9
$DIMAUNIT
 70
     0
  9
$DIMADEC
 70
     2
  9
$DIMALTRND
 40
0.0
  9
$DIMAZIN
 70
     0
  9
$DIMDSEP
 70
    44
  9
$DIMATFIT
 70
     3
  9
$DIMFRAC
 70
     0
  9
$DIMLDRBLK
  1

  9
$DIMLUNIT
 70
     2
  9
$DIMLWD
 70
    -2
  9
$DIMLWE
 70
    -2
  9
$DIMTMOVE
 70
     0
  9
$LUNITS
 70
     2
  9
$LUPREC
 70
     2
  9
$SKETCHINC
 40
1.0
  9
$FILLETRAD
 40
10.0
  9
$AUNITS
 70
     0
  9
$AUPREC
 70
     2
  9
$MENU
  1
.
  9
$ELEVATION
 40
0.0
  9
$PELEVATION
 40
0.0
  9
$THICKNESS
 40
0.0
  9
$LIMCHECK
 70
     0
  9
$CHAMFERA
 40
0.0
  9
$CHAMFERB
 40
0.0
  9
$CHAMFERC
 40
0.0
  9
$CHAMFERD
 40
0.0
  9
$SKPOLY
 70
     0
  9
$TDCREATE
 40
2458985.699875903
  9
$TDUCREATE
 40
2458985.574875903
  9
$TDUPDATE
 40
2458985.699876158
  9
$TDUUPDATE
 40
2458985.574876158
  9
$TDINDWG
 40
0.0000000116
  9
$TDUSRTIMER
 40
0.0000000116
  9
$USRTIMER
 70
     1
  9
$ANGBASE
 50
0.0
  9
$ANGDIR
 70
     0
  9
$PDMODE
 70
     0
  9
$PDSIZE
 40
-1.0
  9
$PLINEWID
 40
0.0
  9
$SPLFRAME
 70
     0
  9
$SPLINETYPE
 70
     6
  9
$SPLINESEGS
 70
     8
  9
$HANDSEED
  5
F1
  9
$SURFTAB1
 70
     6
  9
$SURFTAB2
 70
     6
  9
$SURFTYPE
 70
     6
  9
$SURFU
 70
     6
  9
$SURFV
 70
     6
  9
$UCSBASE
  2

  9
$UCSNAME
  2

  9
$UCSORG
 10
0.0
 20
0.0
 30
0.0
  9
$UCSXDIR
 10
1.0
 20
0.0
 30
0.0
  9
$UCSYDIR
 10
0.0
 20
1.0
 30
0.0
  9
$UCSORTHOREF
  2

  9
$UCSORTHOVIEW
 70
     0
  9
$UCSORGTOP
 10
0.0
 20
0.0
 30
0.0
  9
$UCSORGBOTTOM
 10
0.0
 20
0.0
 30
0.0
  9
$UCSORGLEFT
 10
0.0
 20
0.0
 30
0.0
  9
$UCSORGRIGHT
 10
0.0
 20
0.0
 30
0.0
  9
$UCSORGFRONT
 10
0.0
 20
0.0
 30
0.0
  9
$UCSORGBACK
 10
0.0
 20
0.0
 30
0.0
  9
$PUCSBASE
  2

  9
$PUCSNAME
  2

  9
$PUCSORG
 10
0.0
 20
0.0
 30
0.0
  9
$PUCSXDIR
 10
1.0
 20
0.0
 30
0.0
  9
$PUCSYDIR
 10
0.0
 20
1.0
 30
0.0
  9
$PUCSORTHOREF
  2

  9
$PUCSORTHOVIEW
 70
     0
  9
$PUCSORGTOP
 10
0.0
 20
0.0
 30
0.0
  9
$PUCSORGBOTTOM
 10
0.0
 20
0.0
 30
0.0
  9
$PUCSORGLEFT
 10
0.0
 20
0.0
 30
0.0
  9
$PUCSORGRIGHT
 10
0.0
 20
0.0
 30
0.0
  9
$PUCSORGFRONT
 10
0.0
 20
0.0
 30
0.0
  9
$PUCSORGBACK
 10
0.0
 20
0.0
 30
0.0
  9
$USERI1
 70
     0
  9
$USERI2
 70
     0
  9
$USERI3
 70
     0
  9
$USERI4
 70
     0
  9
$USERI5
 70
     0
  9
$USERR1
 40
0.0
  9
$USERR2
 40
0.0
  9
$USERR3
 40
0.0
  9
$USERR4
 40
0.0
  9
$USERR5
 40
0.0
  9
$WORLDVIEW
 70
     1
  9
$SHADEDGE
 70
     3
  9
$SHADEDIF
 70
    70
  9
$TILEMODE
 70
     1
  9
$MAXACTVP
 70
    64
  9
$PINSBASE
 10
0.0
 20
0.0
 30
0.0
  9
$PLIMCHECK
 70
     0
  9
$PEXTMIN
 10
1.0000000000E+20
 20
1.0000000000E+20
 30
1.0000000000E+20
  9
$PEXTMAX
 10
-1.0000000000E+20
 20
-1.0000000000E+20
 30
-1.0000000000E+20
  9
$PLIMMIN
 10
0.0
 20
0.0
  9
$PLIMMAX
 10
420.0
 20
297.0
  9
$UNITMODE
 70
     0
  9
$VISRETAIN
 70
     1
  9
$PLINEGEN
 70
     0
  9
$PSLTSCALE
 70
     1
  9
$TREEDEPTH
 70
  3020
  9
$CMLSTYLE
  2
Standard
  9
$CMLJUST
 70
     0
  9
$CMLSCALE
 40
20.0
  9
$PROXYGRAPHICS
 70
     1
  9
$MEASUREMENT
 70
     1
  9
$CELWEIGHT
370
    -1
  9
$ENDCAPS
280
     0
  9
$JOINSTYLE
280
     0
  9
$LWDISPLAY
290
     1
  9
$INSUNITS
 70
     4
  9
$HYPERLINKBASE
  1

  9
$STYLESHEET
  1

  9
$XEDIT
290
     1
  9
$CEPSNTYPE
380
     0
  9
$PSTYLEMODE
290
     1
  9
$FINGERPRINTGUID
  2
{02333d7d-75de-492f-a5a8-17e14a450d89}
  9
$VERSIONGUID
  2
{FAEB1C32-E019-11D5-929B-00C0DF256EC4}
  9
$EXTNAMES
290
     1
  9
$PSVPSCALE
 40
0.0
  9
$OLESTARTUP
290
     0
  0
ENDSEC
  0
SECTION
  2
CLASSES
  0
CLASS
  1
ACDBDICTIONARYWDFLT
  2
AcDbDictionaryWithDefault
  3
ObjectDBX Classes
 90
        0
280
     0
281
     0
  0
CLASS
  1
VISUALSTYLE
  2
AcDbVisualStyle
  3
ObjectDBX Classes
 90
     4095
280
     0
281
     0
  0
CLASS
  1
MATERIAL
  2
AcDbMaterial
  3
ObjectDBX Classes
 90
     1153
280
     0
281
     0
  0
CLASS
  1
SCALE
  2
AcDbScale
  3
ObjectDBX Classes
 90
     1153
280
     0
281
     0
  0
CLASS
  1
TABLESTYLE
  2
AcDbTableStyle
  3
ObjectDBX Classes
 90
     4095
280
     0
281
     0
  0
CLASS
  1
MLEADERSTYLE
  2
AcDbMLeaderStyle
  3
ACDB_MLEADERSTYLE_CLASS
 90
     4095
280
     0
281
     0
  0
CLASS
  1
SUN
  2
AcDbSun
  3
SCENEOE
 90
     1153
280
     0
281
     0
  0
CLASS
  1
ACDBPLACEHOLDER
  2
AcDbPlaceHolder
  3
ObjectDBX Classes
 90
        0
280
     0
281
     0
  0
CLASS
  1
LAYOUT
  2
AcDbLayout
  3
ObjectDBX Classes
 90
        0
280
     0
281
     0
  0
ENDSEC
  0
SECTION
  2
TABLES
  0
TABLE
  2
VPORT
  5
8
330
0
100
AcDbSymbolTable
 70
     1
  0
VPORT
  5
29
330
8
100
AcDbSymbolTableRecord
100
AcDbViewportTableRecord
  2
*Active
 70
     0
 10
0.0
 20
0.0
 11
1.0
 21
1.0
 12
139.7
 22
107.95
 13
0.0
 23
0.0
 14
10.0
 24
10.0
 15
10.0
 25
10.0
 16
0.0
 26
0.0
 36
1.0
 17
0.0
 27
0.0
 37
0.0
 40
215.9
 41
1.2941176471
 42
50.0
 43
0.0
 44
0.0
 50
0.0
 51
0.0
 71
     0
 72
  2000
 73
     1
 74
     3
 75
     0
 76
     0
 77
     0
 78
     0
281
     0
 65
     1
110
0.0
120
0.0
130
0.0
111
1.0
121
0.0
131
0.0
112
0.0
122
1.0
132
0.0
 79
     0
146
0.0
  0
ENDTAB
  0
TABLE
  2
LTYPE
  5
5
330
0
100
AcDbSymbolTable
 70
     6
  0
LTYPE
  5
14
330
5
100
AcDbSymbolTableRecord
100
AcDbLinetypeTableRecord
  2
ByBlock
 70
     0
  3

 72
    65
 73
     0
 40
0.0
  0
LTYPE
  5
15
330
5
100
AcDbSymbolTableRecord
100
AcDbLinetypeTableRecord
  2
ByLayer
 70
     0
  3

 72
    65
 73
     0
 40
0.0
  0
LTYPE
  5
16
330
5
100
AcDbSymbolTableRecord
100
AcDbLinetypeTableRecord
  2
Continuous
 70
     0
  3
Solid line
 72
    65
 73
     0
 40
0.0
  0
LTYPE
  5
6E
330
5
100
AcDbSymbolTableRecord
100
AcDbLinetypeTableRecord
  2
HIDDEN
 70
     0
  3
Hidden __ __ __ __ __ __ __ __ __ __ __ __ __ __
 72
    65
 73
     2
 40
1.905
 49
1.27
 74
     0
 49
-0.635
 74
     0
  0
LTYPE
  5
6F
330
5
100
AcDbSymbolTableRecord
100
AcDbLinetypeTableRecord
  2
PHANTOM
 70
     0
  3
Phantom ______  __  __  ______  __  __  ______
 72
    65
 73
     6
 40
12.7
 49
6.35
 74
     0
 49
-1.27
 74
     0
 49
1.27
 74
     0
 49
-1.27
 74
     0
 49
1.27
 74
     0
 49
-1.27
 74
     0
  0
LTYPE
  5
70
330
5
100
AcDbSymbolTableRecord
100
AcDbLinetypeTableRecord
  2
CENTER
 70
     0
  3
Center ____ _ ____ _ ____ _ ____ _ ____ _ ____
 72
    65
 73
     4
 40
10.16
 49
6.35
 74
     0
 49
-1.27
 74
     0
 49
1.27
 74
     0
 49
-1.27
 74
     0
  0
LTYPE
  5
71
330
5
100
AcDbSymbolTableRecord
100
AcDbLinetypeTableRecord
  2
CENTERX2
 70
     0
  3
Center (2x) ________  __  ________  __  _____
 72
    65
 73
     4
 40
20.32
 49
12.7
 74
     0
 49
-2.54
 74
     0
 49
2.54
 74
     0
 49
-2.54
 74
     0
  0
LTYPE
  5
72
330
5
100
AcDbSymbolTableRecord
100
AcDbLinetypeTableRecord
  2
DOT2
 70
     0
  3
Dot (.5x) ........................................
 72
    65
 73
     2
 40
0.635
 49
0.0
 74
     0
 49
-0.635
 74
     0
  0
ENDTAB
  0
TABLE
  2
LAYER
  5
2
330
0
100
AcDbSymbolTable
 70
    17
  0
LAYER
  5
10
330
2
100
AcDbSymbolTableRecord
100
AcDbLayerTableRecord
  2
0
 70
     0
 62
     7
  6
Continuous
370
    -3
390
F
  0
LAYER
  5
73
330
2
100
AcDbSymbolTableRecord
100
AcDbLayerTableRecord
  2
FORMAT
 70
     0
 62
     7
  6
Continuous
370
    -3
390
F
  0
LAYER
  5
74
330
2
100
AcDbSymbolTableRecord
100
AcDbLayerTableRecord
  2
YARDIMCI_GEOMETRI
 70
     0
 62
    -6
  6
Continuous
290
     0
370
    -3
390
F
  0
LAYER
  5
75
330
2
100
AcDbSymbolTableRecord
100
AcDbLayerTableRecord
  2
SAYFA_CERCEVESI
 70
     0
 62
     7
  6
Continuous
370
    25
390
F
  0
LAYER
  5
76
330
2
100
AcDbSymbolTableRecord
100
AcDbLayerTableRecord
  2
ANTET
 70
     0
 62
     7
  6
Continuous
370
    -3
390
F
  0
LAYER
  5
77
330
2
100
AcDbSymbolTableRecord
100
AcDbLayerTableRecord
  2
OLCU
 70
     0
 62
   150
  6
Continuous
370
    -3
390
F
  0
LAYER
  5
78
330
2
100
AcDbSymbolTableRecord
100
AcDbLayerTableRecord
  2
METIN
 70
     0
 62
    96
  6
Continuous
370
    -3
390
F
  0
LAYER
  5
79
330
2
100
AcDbSymbolTableRecord
100
AcDbLayerTableRecord
  2
BALON
 70
     0
 62
     5
  6
Continuous
370
    -3
390
F
  0
LAYER
  5
7A
330
2
100
AcDbSymbolTableRecord
100
AcDbLayerTableRecord
  2
VURGU
 70
     0
 62
     7
  6
Continuous
370
    -3
390
F
  0
LAYER
  5
7B
330
2
100
AcDbSymbolTableRecord
100
AcDbLayerTableRecord
  2
SILIK
 70
     0
 62
     7
  6
Continuous
370
    -3
390
F
  0
LAYER
  5
7C
330
2
100
AcDbSymbolTableRecord
100
AcDbLayerTableRecord
  2
MODEL
 70
     0
 62
     7
  6
Continuous
370
    -3
390
F
  0
LAYER
  5
7D
330
2
100
AcDbSymbolTableRecord
100
AcDbLayerTableRecord
  2
DETAYLANDıRMA
 70
     0
 62
   190
  6
Continuous
370
    -3
390
F
  0
LAYER
  5
7E
330
2
100
AcDbSymbolTableRecord
100
AcDbLayerTableRecord
  2
TOLERANS
 70
     0
 62
   230
  6
Continuous
370
    -3
390
F
  0
LAYER
  5
7F
330
2
100
AcDbSymbolTableRecord
100
AcDbLayerTableRecord
  2
MERKEZ_CIZGILERI
 70
     0
 62
    30
  6
Continuous
370
    -3
390
F
  0
LAYER
  5
80
330
2
100
AcDbSymbolTableRecord
100
AcDbLayerTableRecord
  2
KESIT-DETAY_CIZGILERI
 70
     0
 62
     7
  6
Continuous
370
    -3
390
F
  0
LAYER
  5
81
330
2
100
AcDbSymbolTableRecord
100
AcDbLayerTableRecord
  2
\U+041E\U+0421\U+0415\U+0412\U+042B\U+0415
 70
     0
 62
     7
  6
Continuous
370
    -3
390
F
  0
LAYER
  5
82
330
2
100
AcDbSymbolTableRecord
100
AcDbLayerTableRecord
  2
\U+0412\U+041E\U+0414\U+042F\U+041D\U+042B\U+0415_\U+0417\U+041D\U+0410\U+041A\U+0418
 70
     0
 62
    11
  6
Continuous
370
    -3
390
F
  0
ENDTAB
  0
TABLE
  2
STYLE
  5
3
330
0
100
AcDbSymbolTable
 70
     1
  0
STYLE
  5
11
330
3
100
AcDbSymbolTableRecord
100
AcDbTextStyleTableRecord
  2
Standard
 70
     0
 40
0.0
 41
1.0
 50
0.0
 71
     0
 42
3.5
  3
txt
  4

  0
ENDTAB
  0
TABLE
  2
VIEW
  5
6
330
0
100
AcDbSymbolTable
 70
     0
  0
ENDTAB
  0
TABLE
  2
UCS
  5
7
330
0
100
AcDbSymbolTable
 70
     0
  0
ENDTAB
  0
TABLE
  2
APPID
  5
9
330
0
100
AcDbSymbolTable
 70
     1
  0
APPID
  5
12
330
9
100
AcDbSymbolTableRecord
100
AcDbRegAppTableRecord
  2
ACAD
 70
     0
  0
ENDTAB
  0
TABLE
  2
DIMSTYLE
  5
A
330
0
100
AcDbSymbolTable
 70
     1
100
AcDbDimStyleTable
  0
DIMSTYLE
105
27
330
A
100
AcDbSymbolTableRecord
100
AcDbDimStyleTableRecord
  2
ISO-25
 70
     0
 41
2.5
 42
0.625
 43
3.75
 44
1.25
 73
     0
 74
     0
 77
     1
 78
     8
140
2.5
141
2.5
143
0.0393700787
147
0.625
171
     3
172
     1
178
     0
271
     2
272
     2
274
     3
278
    44
283
     0
284
     8
340
11
  0
ENDTAB
  0
TABLE
  2
BLOCK_RECORD
  5
1
330
0
100
AcDbSymbolTable
 70
     2
  0
BLOCK_RECORD
  5
1F
330
1
100
AcDbSymbolTableRecord
100
AcDbBlockTableRecord
  2
*Model_Space
340
22
  0
BLOCK_RECORD
  5
1B
330
1
100
AcDbSymbolTableRecord
100
AcDbBlockTableRecord
  2
*Paper_Space
340
1E
  0
BLOCK_RECORD
  5
23
330
1
100
AcDbSymbolTableRecord
100
AcDbBlockTableRecord
  2
*Paper_Space0
340
26
  0
BLOCK_RECORD
  5
88
330
1
100
AcDbSymbolTableRecord
100
AcDbBlockTableRecord
  2
SW_CENTERMARKSYMBOL_0
340
0
102
{BLKREFS
331
93
102
}
  0
ENDTAB
  0
ENDSEC
  0
SECTION
  2
BLOCKS
  0
BLOCK
  5
20
330
1F
100
AcDbEntity
  8
0
100
AcDbBlockBegin
  2
*Model_Space
 70
     0
 10
0.0
 20
0.0
 30
0.0
  3
*Model_Space
  1

  0
ENDBLK
  5
21
330
1F
100
AcDbEntity
  8
0
100
AcDbBlockEnd
  0
BLOCK
  5
1C
330
1B
100
AcDbEntity
 67
     1
  8
0
100
AcDbBlockBegin
  2
*Paper_Space
 70
     0
 10
0.0
 20
0.0
 30
0.0
  3
*Paper_Space
  1

  0
ENDBLK
  5
1D
330
1B
100
AcDbEntity
 67
     1
  8
0
100
AcDbBlockEnd
  0
BLOCK
  5
24
330
23
100
AcDbEntity
  8
0
100
AcDbBlockBegin
  2
*Paper_Space0
 70
     0
 10
0.0
 20
0.0
 30
0.0
  3
*Paper_Space0
  1

  0
ENDBLK
  5
25
330
23
100
AcDbEntity
  8
0
100
AcDbBlockEnd
  0
BLOCK
  5
89
330
88
100
AcDbEntity
  8
0
100
AcDbBlockBegin
  2
SW_CENTERMARKSYMBOL_0
 70
     0
 10
0.0
 20
0.0
 30
0.0
  3
SW_CENTERMARKSYMBOL_0
  1

  0
LINE
  5
8B
330
88
100
AcDbEntity
  8
FORMAT
 62
     0
100
AcDbLine
 10
0.0
 20
0.0
 30
0.0
 11
0.0
 21
2.5
 31
0.0
  0
LINE
  5
8C
330
88
100
AcDbEntity
  8
FORMAT
 62
     0
100
AcDbLine
 10
0.0
 20
0.0
 30
0.0
 11
-2.5
 21
0.0
 31
0.0
  0
LINE
  5
8D
330
88
100
AcDbEntity
  8
FORMAT
 62
     0
100
AcDbLine
 10
0.0
 20
0.0
 30
0.0
 11
0.0
 21
-2.5
 31
0.0
  0
LINE
  5
8E
330
88
100
AcDbEntity
  8
FORMAT
 62
     0
100
AcDbLine
 10
0.0
 20
0.0
 30
0.0
 11
2.5
 21
0.0
 31
0.0
  0
LINE
  5
8F
330
88
100
AcDbEntity
  8
FORMAT
 62
     0
100
AcDbLine
 10
0.0
 20
5.0
 30
0.0
 11
0.0
 21
160.0
 31
0.0
  0
LINE
  5
90
330
88
100
AcDbEntity
  8
FORMAT
 62
     0
100
AcDbLine
 10
-5.0
 20
0.0
 30
0.0
 11
-160.0
 21
0.0
 31
0.0
  0
LINE
  5
91
330
88
100
AcDbEntity
  8
FORMAT
 62
     0
100
AcDbLine
 10
0.0
 20
-5.0
 30
0.0
 11
0.0
 21
-160.0
 31
0.0
  0
LINE
  5
92
330
88
100
AcDbEntity
  8
FORMAT
 62
     0
100
AcDbLine
 10
5.0
 20
0.0
 30
0.0
 11
160.0
 21
0.0
 31
0.0
  0
ENDBLK
  5
8A
330
88
100
AcDbEntity
  8
0
100
AcDbBlockEnd
  0
ENDSEC
  0
SECTION
  2
ENTITIES
  0
CIRCLE
  5
83
330
1F
100
AcDbEntity
  8
0
  6
Continuous
 62
     7
370
    25
100
AcDbCircle
 10
139.395004093
 20
107.5851680021
 30
0.0
 40
157.5
  0
CIRCLE
  5
84
330
1F
100
AcDbEntity
  8
0
  6
Continuous
 62
     7
370
    25
100
AcDbCircle
 10
139.395004093
 20
107.5851680021
 30
0.0
 40
128.9
  0
CIRCLE
  5
85
330
1F
100
AcDbEntity
  8
0
  6
Continuous
 62
     7
370
    25
100
AcDbCircle
 10
139.395004093
 20
107.5851680021
 30
0.0
 40
128.4957251500903
  0
CIRCLE
  5
86
330
1F
100
AcDbEntity
  8
0
  6
Continuous
 62
     7
370
    25
100
AcDbCircle
 10
139.395004093
 20
107.5851680021
 30
0.0
 40
92.40427484990974
  0
CIRCLE
  5
87
330
1F
100
AcDbEntity
  8
0
  6
Continuous
 62
     7
370
    25
100
AcDbCircle
 10
139.395004093
 20
107.5851680021
 30
0.0
 40
92.00000000000003
  0
INSERT
  5
93
330
1F
100
AcDbEntity
  8
FORMAT
 62
     7
100
AcDbBlockReference
  2
SW_CENTERMARKSYMBOL_0
 10
139.395004093
 20
107.5851680021
 30
0.0
  0
ARC
  5
94
330
1F
100
AcDbEntity
  8
0
  6
Continuous
 62
     7
370
    25
100
AcDbCircle
 10
-469.8602503931
 20
263.0851680021
 30
0.0
 40
2.000000000000019
100
AcDbArc
 50
66.8014094864
 51
90.0
  0
ARC
  5
95
330
1F
100
AcDbEntity
  8
0
  6
Continuous
 62
     7
370
    25
100
AcDbCircle
 10
-469.8602503931
 20
-47.9148319979
 30
0.0
 40
2.000000000000012
100
AcDbArc
 50
270.0
 51
293.1985905137
  0
LINE
  5
96
330
1F
100
AcDbEntity
  8
0
  6
Continuous
 62
     7
370
    25
100
AcDbLine
 10
-469.8602493856
 20
265.08516681
 30
0.0
 11
-619.4497320805
 21
265.08516681
 31
0.0
  0
LINE
  5
97
330
1F
100
AcDbEntity
  8
0
  6
Continuous
 62
     7
370
    25
100
AcDbLine
 10
-619.4497320805
 20
-49.9148308058
 30
0.0
 11
-469.8602493856
 21
-49.9148308058
 31
0.0
  0
LINE
  5
98
330
1F
100
AcDbEntity
  8
0
  6
Continuous
 62
     7
370
    25
100
AcDbLine
 10
-469.0724100921
 20
-49.7531234045
 30
0.0
 11
-364.827056602
 21
-5.0765438695
 31
0.0
  0
LINE
  5
99
330
1F
100
AcDbEntity
  8
0
  6
Continuous
 62
     7
370
    25
100
AcDbLine
 10
-364.827056602
 20
220.2468798737
 30
0.0
 11
-469.0724100921
 21
264.9234594087
 31
0.0
  0
ARC
  5
9A
330
1F
100
AcDbEntity
  8
0
  6
Continuous
 62
     7
370
    25
100
AcDbCircle
 10
-364.0392195853
 20
222.0851680021
 30
0.0
 40
2.000000000000019
100
AcDbArc
 50
246.8014094864
 51
270.0
  0
ARC
  5
9B
330
1F
100
AcDbEntity
  8
0
  6
Continuous
 62
     7
370
    25
100
AcDbCircle
 10
-364.0392195853
 20
-6.9148319979
 30
0.0
 40
2.000000000000024
100
AcDbArc
 50
90.0
 51
113.1985905136
  0
LINE
  5
9C
330
1F
100
AcDbEntity
  8
0
  6
Continuous
 62
     7
370
    25
100
AcDbLine
 10
-244.4497320805
 20
220.0851650219
 30
0.0
 11
-364.0392210338
 21
220.0851650219
 31
0.0
  0
LINE
  5
9D
330
1F
100
AcDbEntity
  8
0
  6
Continuous
 62
     7
370
    25
100
AcDbLine
 10
-364.0392210338
 20
-4.9148290177
 30
0.0
 11
-244.4497320805
 21
-4.9148290177
 31
0.0
  0
LINE
  5
9E
330
1F
100
AcDbEntity
  8
0
  6
Continuous
 62
     7
370
    25
100
AcDbLine
 10
-619.4497320805
 20
265.08516681
 30
0.0
 11
-619.4497320805
 21
-49.9148308058
 31
0.0
  0
LINE
  5
9F
330
1F
100
AcDbEntity
  8
0
  6
Continuous
 62
     7
370
    25
100
AcDbLine
 10
-244.4497320805
 20
220.0851650219
 30
0.0
 11
-244.4497320805
 21
-4.9148290177
 31
0.0
  0
LINE
  5
A0
330
1F
100
AcDbEntity
  8
0
  6
Continuous
 62
     1
370
    25
100
AcDbLine
 10
-469.0724100921
 20
264.9234594087
 30
0.0
 11
-469.0724100921
 21
-49.7531234045
 31
0.0
  0
LINE
  5
A1
330
1F
100
AcDbEntity
  8
0
  6
Continuous
 62
     1
370
    25
100
AcDbLine
 10
-469.8602493856
 20
265.08516681
 30
0.0
 11
-469.8602493856
 21
-49.9148308058
 31
0.0
  0
LINE
  5
A2
330
1F
100
AcDbEntity
  8
0
  6
Continuous
 62
     1
370
    25
100
AcDbLine
 10
-364.827056602
 20
220.2468798737
 30
0.0
 11
-364.827056602
 21
-5.0765438695
 31
0.0
  0
LINE
  5
A3
330
1F
100
AcDbEntity
  8
0
  6
Continuous
 62
     1
370
    25
100
AcDbLine
 10
-364.0392210338
 20
220.0851650219
 30
0.0
 11
-364.0392210338
 21
-4.9148290177
 31
0.0
  0
ARC
  5
A4
330
1F
100
AcDbEntity
  8
0
  6
Continuous
 62
     7
370
    25
100
AcDbCircle
 10
625.0054480591
 20
-47.9148319979
 30
0.0
 40
2.000000000000012
100
AcDbArc
 50
246.8014094864
 51
270.0
  0
ARC
  5
A5
330
1F
100
AcDbEntity
  8
0
  6
Continuous
 62
     7
370
    25
100
AcDbCircle
 10
625.0054480591
 20
263.0851680021
 30
0.0
 40
2.000000000000019
100
AcDbArc
 50
90.0
 51
113.1985905136
  0
LINE
  5
A6
330
1F
100
AcDbEntity
  8
0
  6
Continuous
 62
     7
370
    25
100
AcDbLine
 10
625.0054470516
 20
-49.9148308058
 30
0.0
 11
774.5949297465
 21
-49.9148308058
 31
0.0
  0
LINE
  5
A7
330
1F
100
AcDbEntity
  8
0
  6
Continuous
 62
     7
370
    25
100
AcDbLine
 10
774.5949297465
 20
265.08516681
 30
0.0
 11
625.0054470516
 21
265.08516681
 31
0.0
  0
LINE
  5
A8
330
1F
100
AcDbEntity
  8
0
  6
Continuous
 62
     7
370
    25
100
AcDbLine
 10
624.2176077582
 20
264.9234594087
 30
0.0
 11
519.9722542681
 21
220.2468798737
 31
0.0
  0
LINE
  5
A9
330
1F
100
AcDbEntity
  8
0
  6
Continuous
 62
     7
370
    25
100
AcDbLine
 10
519.9722542681
 20
-5.0765438695
 30
0.0
 11
624.2176077582
 21
-49.7531234045
 31
0.0
  0
ARC
  5
AA
330
1F
100
AcDbEntity
  8
0
  6
Continuous
 62
     7
370
    25
100
AcDbCircle
 10
519.1844172513
 20
-6.9148319979
 30
0.0
 40
2.000000000000002
100
AcDbArc
 50
66.8014094864
 51
90.0
  0
ARC
  5
AB
330
1F
100
AcDbEntity
  8
0
  6
Continuous
 62
     7
370
    25
100
AcDbCircle
 10
519.1844172513
 20
222.0851680021
 30
0.0
 40
2.0
100
AcDbArc
 50
270.0
 51
293.1985905136
  0
LINE
  5
AC
330
1F
100
AcDbEntity
  8
0
  6
Continuous
 62
     7
370
    25
100
AcDbLine
 10
399.5949297465
 20
-4.9148290177
 30
0.0
 11
519.1844186999
 21
-4.9148290177
 31
0.0
  0
LINE
  5
AD
330
1F
100
AcDbEntity
  8
0
  6
Continuous
 62
     7
370
    25
100
AcDbLine
 10
519.1844186999
 20
220.0851650219
 30
0.0
 11
399.5949297465
 21
220.0851650219
 31
0.0
  0
LINE
  5
AE
330
1F
100
AcDbEntity
  8
0
  6
Continuous
 62
     7
370
    25
100
AcDbLine
 10
774.5949297465
 20
107.5851680021
 30
0.0
 11
774.5949297465
 21
265.08516681
 31
0.0
  0
LINE
  5
AF
330
1F
100
AcDbEntity
  8
0
  6
Continuous
 62
     7
370
    25
100
AcDbLine
 10
774.5949297465
 20
-49.9148308058
 30
0.0
 11
774.5949297465
 21
107.5851680021
 31
0.0
  0
LINE
  5
B0
330
1F
100
AcDbEntity
  8
0
  6
Continuous
 62
     7
370
    25
100
AcDbLine
 10
399.5949297465
 20
107.5851680021
 30
0.0
 11
399.5949297465
 21
220.0851650219
 31
0.0
  0
LINE
  5
B1
330
1F
100
AcDbEntity
  8
0
  6
Continuous
 62
     7
370
    25
100
AcDbLine
 10
399.5949297465
 20
-4.9148290177
 30
0.0
 11
399.5949297465
 21
107.5851680021
 31
0.0
  0
LINE
  5
B2
330
1F
100
AcDbEntity
  8
0
  6
Continuous
 62
     1
370
    25
100
AcDbLine
 10
624.2176077582
 20
107.5851680021
 30
0.0
 11
624.2176077582
 21
264.9234594087
 31
0.0
  0
LINE
  5
B3
330
1F
100
AcDbEntity
  8
0
  6
Continuous
 62
     1
370
    25
100
AcDbLine
 10
624.2176077582
 20
-49.7531234045
 30
0.0
 11
624.2176077582
 21
107.5851680021
 31
0.0
  0
LINE
  5
B4
330
1F
100
AcDbEntity
  8
0
  6
Continuous
 62
     1
370
    25
100
AcDbLine
 10
625.0054470516
 20
107.5851680021
 30
0.0
 11
625.0054470516
 21
265.08516681
 31
0.0
  0
LINE
  5
B5
330
1F
100
AcDbEntity
  8
0
  6
Continuous
 62
     1
370
    25
100
AcDbLine
 10
625.0054470516
 20
-49.9148308058
 30
0.0
 11
625.0054470516
 21
107.5851680021
 31
0.0
  0
LINE
  5
B6
330
1F
100
AcDbEntity
  8
0
  6
Continuous
 62
     1
370
    25
100
AcDbLine
 10
519.9722542681
 20
107.5851680021
 30
0.0
 11
519.9722542681
 21
220.2468798737
 31
0.0
  0
LINE
  5
B7
330
1F
100
AcDbEntity
  8
0
  6
Continuous
 62
     1
370
    25
100
AcDbLine
 10
519.9722542681
 20
-5.0765438695
 30
0.0
 11
519.9722542681
 21
107.5851680021
 31
0.0
  0
LINE
  5
B8
330
1F
100
AcDbEntity
  8
0
  6
Continuous
 62
     1
370
    25
100
AcDbLine
 10
519.1844186999
 20
107.5851680021
 30
0.0
 11
519.1844186999
 21
220.0851650219
 31
0.0
  0
LINE
  5
B9
330
1F
100
AcDbEntity
  8
0
  6
Continuous
 62
     1
370
    25
100
AcDbLine
 10
519.1844186999
 20
-4.9148290177
 30
0.0
 11
519.1844186999
 21
107.5851680021
 31
0.0
  0
ARC
  5
BA
330
1F
100
AcDbEntity
  8
0
  6
Continuous
 62
     7
370
    25
100
AcDbCircle
 10
294.895004093
 20
636.4829361391
 30
0.0
 40
2.000000000000019
100
AcDbArc
 50
336.8014094864
 51
0.0
  0
ARC
  5
BB
330
1F
100
AcDbEntity
  8
0
  6
Continuous
 62
     7
370
    25
100
AcDbCircle
 10
-16.104995907
 20
636.4829361391
 30
0.0
 40
2.000000000000012
100
AcDbArc
 50
180.0
 51
203.1985905137
  0
LINE
  5
BC
330
1F
100
AcDbEntity
  8
0
  6
Continuous
 62
     7
370
    25
100
AcDbLine
 10
296.895002901
 20
636.4829351316
 30
0.0
 11
296.895002901
 21
786.0724178264
 31
0.0
  0
LINE
  5
BD
330
1F
100
AcDbEntity
  8
0
  6
Continuous
 62
     7
370
    25
100
AcDbLine
 10
-18.1049947149
 20
786.0724178264
 30
0.0
 11
-18.1049947149
 21
636.4829351316
 31
0.0
  0
LINE
  5
BE
330
1F
100
AcDbEntity
  8
0
  6
Continuous
 62
     7
370
    25
100
AcDbLine
 10
-17.9432873136
 20
635.6950958381
 30
0.0
 11
26.7332922214
 21
531.449742348
 31
0.0
  0
LINE
  5
BF
330
1F
100
AcDbEntity
  8
0
  6
Continuous
 62
     7
370
    25
100
AcDbLine
 10
252.0567159647
 20
531.449742348
 30
0.0
 11
296.7332954997
 21
635.6950958381
 31
0.0
  0
ARC
  5
C0
330
1F
100
AcDbEntity
  8
0
  6
Continuous
 62
     7
370
    25
100
AcDbCircle
 10
253.895004093
 20
530.6619053312
 30
0.0
 40
2.000000000000019
100
AcDbArc
 50
156.8014094864
 51
180.0
  0
ARC
  5
C1
330
1F
100
AcDbEntity
  8
0
  6
Continuous
 62
     7
370
    25
100
AcDbCircle
 10
24.895004093
 20
530.6619053312
 30
0.0
 40
2.000000000000025
100
AcDbArc
 50
0.0
 51
23.1985905136
  0
LINE
  5
C2
330
1F
100
AcDbEntity
  8
0
  6
Continuous
 62
     7
370
    25
100
AcDbLine
 10
251.8950011128
 20
411.0724178264
 30
0.0
 11
251.8950011128
 21
530.6619067798
 31
0.0
  0
LINE
  5
C3
330
1F
100
AcDbEntity
  8
0
  6
Continuous
 62
     7
370
    25
100
AcDbLine
 10
26.8950070733
 20
530.6619067798
 30
0.0
 11
26.8950070733
 21
411.0724178264
 31
0.0
  0
LINE
  5
C4
330
1F
100
AcDbEntity
  8
0
  6
Continuous
 62
     7
370
    25
100
AcDbLine
 10
296.895002901
 20
786.0724178264
 30
0.0
 11
-18.1049947149
 21
786.0724178264
 31
0.0
  0
LINE
  5
C5
330
1F
100
AcDbEntity
  8
0
  6
Continuous
 62
     7
370
    25
100
AcDbLine
 10
251.8950011128
 20
411.0724178264
 30
0.0
 11
26.8950070733
 21
411.0724178264
 31
0.0
  0
LINE
  5
C6
330
1F
100
AcDbEntity
  8
0
  6
Continuous
 62
     1
370
    25
100
AcDbLine
 10
296.7332954997
 20
635.6950958381
 30
0.0
 11
-17.9432873136
 21
635.6950958381
 31
0.0
  0
LINE
  5
C7
330
1F
100
AcDbEntity
  8
0
  6
Continuous
 62
     1
370
    25
100
AcDbLine
 10
296.895002901
 20
636.4829351316
 30
0.0
 11
-18.1049947149
 21
636.4829351316
 31
0.0
  0
LINE
  5
C8
330
1F
100
AcDbEntity
  8
0
  6
Continuous
 62
     1
370
    25
100
AcDbLine
 10
252.0567159647
 20
531.449742348
 30
0.0
 11
26.7332922214
 21
531.449742348
 31
0.0
  0
LINE
  5
C9
330
1F
100
AcDbEntity
  8
0
  6
Continuous
 62
     1
370
    25
100
AcDbLine
 10
251.8950011128
 20
530.6619067798
 30
0.0
 11
26.8950070733
 21
530.6619067798
 31
0.0
  0
ARC
  5
CA
330
1F
100
AcDbEntity
  8
0
  6
Continuous
 62
     7
370
    25
100
AcDbCircle
 10
-16.104995907
 20
-429.9529635984
 30
0.0
 40
2.000000000000012
100
AcDbArc
 50
156.8014094864
 51
180.0
  0
ARC
  5
CB
330
1F
100
AcDbEntity
  8
0
  6
Continuous
 62
     7
370
    25
100
AcDbCircle
 10
294.895004093
 20
-429.9529635984
 30
0.0
 40
2.000000000000019
100
AcDbArc
 50
0.0
 51
23.1985905136
  0
LINE
  5
CC
330
1F
100
AcDbEntity
  8
0
  6
Continuous
 62
     7
370
    25
100
AcDbLine
 10
-18.1049947149
 20
-429.9529625909
 30
0.0
 11
-18.1049947149
 21
-579.5424452858
 31
0.0
  0
LINE
  5
CD
330
1F
100
AcDbEntity
  8
0
  6
Continuous
 62
     7
370
    25
100
AcDbLine
 10
296.895002901
 20
-579.5424452858
 30
0.0
 11
296.895002901
 21
-429.9529625909
 31
0.0
  0
LINE
  5
CE
330
1F
100
AcDbEntity
  8
0
  6
Continuous
 62
     7
370
    25
100
AcDbLine
 10
296.7332954997
 20
-429.1651232974
 30
0.0
 11
252.0567159647
 21
-324.9197698073
 31
0.0
  0
LINE
  5
CF
330
1F
100
AcDbEntity
  8
0
  6
Continuous
 62
     7
370
    25
100
AcDbLine
 10
26.7332922214
 20
-324.9197698073
 30
0.0
 11
-17.9432873136
 21
-429.1651232974
 31
0.0
  0
ARC
  5
D0
330
1F
100
AcDbEntity
  8
0
  6
Continuous
 62
     7
370
    25
100
AcDbCircle
 10
24.895004093
 20
-324.1319327906
 30
0.0
 40
2.000000000000025
100
AcDbArc
 50
336.8014094864
 51
0.0
  0
ARC
  5
D1
330
1F
100
AcDbEntity
  8
0
  6
Continuous
 62
     7
370
    25
100
AcDbCircle
 10
253.895004093
 20
-324.1319327906
 30
0.0
 40
2.000000000000019
100
AcDbArc
 50
180.0
 51
203.1985905137
  0
LINE
  5
D2
330
1F
100
AcDbEntity
  8
0
  6
Continuous
 62
     7
370
    25
100
AcDbLine
 10
26.8950070733
 20
-204.5424452858
 30
0.0
 11
26.8950070733
 21
-324.1319342391
 31
0.0
  0
LINE
  5
D3
330
1F
100
AcDbEntity
  8
0
  6
Continuous
 62
     7
370
    25
100
AcDbLine
 10
251.8950011128
 20
-324.1319342391
 30
0.0
 11
251.8950011128
 21
-204.5424452858
 31
0.0
  0
LINE
  5
D4
330
1F
100
AcDbEntity
  8
0
  6
Continuous
 62
     7
370
    25
100
AcDbLine
 10
-18.1049947149
 20
-579.5424452858
 30
0.0
 11
296.895002901
 21
-579.5424452858
 31
0.0
  0
LINE
  5
D5
330
1F
100
AcDbEntity
  8
0
  6
Continuous
 62
     7
370
    25
100
AcDbLine
 10
26.8950070733
 20
-204.5424452858
 30
0.0
 11
251.8950011128
 21
-204.5424452858
 31
0.0
  0
LINE
  5
D6
330
1F
100
AcDbEntity
  8
0
  6
Continuous
 62
     1
370
    25
100
AcDbLine
 10
-17.9432873136
 20
-429.1651232974
 30
0.0
 11
296.7332954997
 21
-429.1651232974
 31
0.0
  0
LINE
  5
D7
330
1F
100
AcDbEntity
  8
0
  6
Continuous
 62
     1
370
    25
100
AcDbLine
 10
-18.1049947149
 20
-429.9529625909
 30
0.0
 11
296.895002901
 21
-429.9529625909
 31
0.0
  0
LINE
  5
D8
330
1F
100
AcDbEntity
  8
0
  6
Continuous
 62
     1
370
    25
100
AcDbLine
 10
26.7332922214
 20
-324.9197698073
 30
0.0
 11
252.0567159647
 21
-324.9197698073
 31
0.0
  0
LINE
  5
D9
330
1F
100
AcDbEntity
  8
0
  6
Continuous
 62
     1
370
    25
100
AcDbLine
 10
26.8950070733
 20
-324.1319342391
 30
0.0
 11
251.8950011128
 21
-324.1319342391
 31
0.0
  0
LINE
  5
DA
330
1F
100
AcDbEntity
  8
0
  6
Continuous
 62
     7
370
    25
100
AcDbLine
 10
715.7454020224
 20
-216.1819190914
 30
0.0
 11
609.9696644146
 21
-155.1188855337
 31
0.0
  0
LINE
  5
DB
330
1F
100
AcDbEntity
  8
0
  6
Continuous
 62
     7
370
    25
100
AcDbLine
 10
452.48246479
 20
-427.924282822
 30
0.0
 11
558.2582023977
 21
-488.9873163797
 31
0.0
  0
SPLINE
  5
DC
330
1F
100
AcDbEntity
  8
0
  6
Continuous
 62
     7
370
    25
100
AcDbSpline
210
0.0
220
0.0
230
1.0
 70
     8
 71
     3
 72
     9
 73
     5
 74
     0
 42
0.000000001
 43
0.00000001
 40
0.0
 40
0.0
 40
0.0
 40
0.0
 40
0.7563059073548583
 40
1.0
 40
1.0
 40
1.0
 40
1.0
 10
728.7482289894103
 20
-226.6389817079653
 30
0.0
 10
727.8376111281223
 20
-225.6612160171085
 30
0.0
 10
726.6335773470389
 20
-224.3683982811259
 30
0.0
 10
725.3160622013866
 20
-223.2357167965465
 30
0.0
 10
724.9949915434206
 20
-222.959689009906
 30
0.0
  0
SPLINE
  5
DD
330
1F
100
AcDbEntity
  8
0
  6
Continuous
 62
     7
370
    25
100
AcDbSpline
210
0.0
220
0.0
230
1.0
 70
     8
 71
     3
 72
    10
 73
     6
 74
     0
 42
0.000000001
 43
0.00000001
 40
0.0
 40
0.0
 40
0.0
 40
0.0
 40
0.0914996005470838
 40
0.811592671942132
 40
1.0
 40
1.0
 40
1.0
 40
1.0
 10
569.0131008576155
 20
-493.7078899281457
 30
0.0
 10
569.1796945322048
 20
-493.7666617966151
 30
0.0
 10
570.6573644310913
 20
-494.2879626272296
 30
0.0
 10
572.5481882285308
 20
-494.7862411641768
 30
0.0
 10
574.3151269455865
 20
-495.1161925749367
 30
0.0
 10
574.6815595885693
 20
-495.1846188119835
 30
0.0
  0
LINE
  5
DE
330
1F
100
AcDbEntity
  8
0
  6
Continuous
 62
     7
370
    25
100
AcDbLine
 10
586.4400140242
 20
-496.5251643773
 30
0.0
 11
674.6679375962
 21
-498.2975947667
 31
0.0
  0
LINE
  5
DF
330
1F
100
AcDbEntity
  8
0
  6
Continuous
 62
     7
370
    25
100
AcDbLine
 10
782.0222353655
 20
-312.3343479403
 30
0.0
 11
736.3662112717
 21
-236.8172309106
 31
0.0
  0
LINE
  5
E0
330
1F
100
AcDbEntity
  8
0
  6
Continuous
 62
     7
370
    25
100
AcDbLine
 10
852.636535232
 20
-347.1676056784
 30
0.0
 11
776.5135579715
 21
-303.2227462985
 31
0.0
  0
LINE
  5
E1
330
1F
100
AcDbEntity
  8
0
  6
Continuous
 62
     7
370
    25
100
AcDbLine
 10
664.0227026019
 20
-498.0837452309
 30
0.0
 11
740.1456798625
 21
-542.0286046108
 31
0.0
  0
LWPOLYLINE
  5
E2
330
1F
100
AcDbEntity
  8
0
  6
Continuous
 62
     7
370
    25
100
AcDbPolyline
 90
      134
 70
   128
 43
0.0
 10
419.8567474084
 20
-355.8137224973
 10
419.9809963178
 20
-349.6686898081
 10
420.3534901649
 20
-343.3938998155
 10
420.9733754761
 20
-337.003368531
 10
421.839271942
 20
-330.5113507019
 10
422.9492618811
 20
-323.9323268826
 10
424.3008586293
 20
-317.2809859411
 10
425.8910381502
 20
-310.5721672664
 10
427.7162706452
 20
-303.820836437
 10
429.7724784068
 20
-297.0420593612
 10
432.0550568918
 20
-290.2509688183
 10
434.5589379415
 20
-283.462703628
 10
437.2785054885
 20
-276.6924299354
 10
440.2077219968
 20
-269.9552408412
 10
443.3400230945
 20
-263.2661807275
 10
446.6684387468
 20
-256.6401631384
 10
450.1855353031
 20
-250.0919859842
 10
453.883462913
 20
-243.6362494159
 10
457.7539765991
 20
-237.2873679944
 10
461.7884309892
 20
-231.0595007276
 10
465.9778277312
 20
-224.9665541163
 10
470.3128207614
 20
-219.0221121928
 10
474.783737378
 20
-213.2394365223
 10
479.3805940463
 20
-207.6314570789
 10
484.0931385454
 20
-202.2106505758
 10
488.9108578709
 20
-196.9891454096
 10
493.8229966736
 20
-191.9785771742
 10
498.8185994074
 20
-187.1901251673
 10
503.8865129622
 20
-182.6344743666
 10
509.0154340803
 20
-178.321800226
 10
514.1939133068
 20
-174.2617177245
 10
519.4103997711
 20
-170.4632798494
 10
524.6532504061
 20
-166.9349844414
 10
529.9107679799
 20
-163.6846792355
 10
535.1712206864
 20
-160.7196357227
 10
540.4228698054
 20
-158.0464601784
 10
545.6539976897
 20
-155.6711140074
 10
550.8529313086
 20
-153.5989123204
 10
556.0080690836
 20
-151.8344597723
 10
561.1079088762
 20
-150.3817074094
 10
566.1410697203
 20
-149.2439036217
 10
571.0963247491
 20
-148.4235629671
 10
575.9626104149
 20
-147.9225338532
 10
580.72907127
 20
-147.7419361836
 10
585.3850757718
 20
-147.8821522341
 10
589.9202241856
 20
-148.3429072622
 10
594.3244065359
 20
-149.1231265457
 10
598.5877920704
 20
-150.2211118088
 10
602.7008661381
 20
-151.6343800081
 10
606.6544512627
 20
-153.3597971751
 10
610.4397282161
 20
-155.3935054146
 10
614.0482465552
 20
-157.7309715748
 10
617.4719562319
 20
-160.366975083
 10
620.7032233983
 20
-163.295635324
 10
623.7348251383
 20
-166.5104207645
 10
626.560002151
 20
-170.0041550426
 10
629.1724534825
 20
-173.7690382596
 10
631.5663523311
 20
-177.7966743584
 10
633.7363460469
 20
-182.0780772073
 10
635.6776088159
 20
-186.6036858139
 10
637.3857889759
 20
-191.3634160319
 10
638.8570933106
 20
-196.3466301506
 10
640.0882343657
 20
-201.5422190196
 10
641.0764515228
 20
-206.9385883625
 10
641.8195531456
 20
-212.5236952834
 10
642.3158744336
 20
-218.2850794416
 10
642.5643195689
 20
-224.2098776945
 10
642.5643195689
 20
-230.2848777066
 10
642.3158744336
 20
-236.496524607
 10
641.8195531456
 20
-242.8309491269
 10
641.0764515228
 20
-249.2740229191
 10
640.0882343657
 20
-255.8113635053
 10
638.8570933106
 20
-262.4283975802
 10
637.3857889759
 20
-269.1103435252
 10
635.6776088159
 20
-275.8422965761
 10
633.7363460469
 20
-282.6092394676
 10
631.5663523311
 20
-289.3960637314
 10
629.1724534825
 20
-296.1876366087
 10
626.560002151
 20
-302.9687919299
 10
623.7348251383
 20
-309.7244061557
 10
620.7032233983
 20
-316.4394044611
 10
617.4719562319
 20
-323.0988063614
 10
614.0482465552
 20
-329.6877409219
 10
610.4397282161
 20
-336.1915136741
 10
606.6544512627
 20
-342.5956096576
 10
602.7008661381
 20
-348.8857390468
 10
598.5877920704
 20
-355.0478614824
 10
594.3244065359
 20
-361.0682469075
 10
589.9202241856
 20
-366.9334268963
 10
585.3850757718
 20
-372.6303528279
 10
580.72907127
 20
-378.146277251
 10
575.9626104149
 20
-383.468918145
 10
571.0963247491
 20
-388.5863828678
 10
566.1410697203
 20
-393.4872578899
 10
561.1079088762
 20
-398.1606179188
 10
556.0080690836
 20
-402.5960152476
 10
550.8529313086
 20
-406.7835580827
 10
545.6539976897
 20
-410.713917384
 10
540.4228698054
 20
-414.3783029089
 10
535.1712206864
 20
-417.7685523737
 10
529.9107679799
 20
-420.8770982759
 10
524.6532504061
 20
-423.6969936528
 10
519.4103997711
 20
-426.2219647407
 10
514.1939133068
 20
-428.4463539377
 10
509.0154340803
 20
-430.3652162856
 10
503.8865129622
 20
-431.9742684206
 10
498.8185994074
 20
-433.2699060622
 10
493.8229966736
 20
-434.2492542005
 10
488.9108578709
 20
-434.910120707
 10
484.0931385454
 20
-435.2510358744
 10
479.3805940463
 20
-435.2712174353
 10
474.783737378
 20
-434.9706557296
 10
470.3128207614
 20
-434.3499905081
 10
465.9778277312
 20
-433.4106250012
 10
461.7884309892
 20
-432.1546529103
 10
457.7539765991
 20
-430.5848675323
 10
453.883462913
 20
-428.7047860917
 10
450.1855353031
 20
-426.5185858621
 10
446.6684387468
 20
-424.0311619563
 10
443.3400230945
 20
-421.2480512807
 10
440.2077219968
 20
-418.1754690356
 10
437.2785054885
 20
-414.8202813339
 10
434.5589379415
 20
-411.1899534954
 10
432.0550568918
 20
-407.2926078303
 10
429.7724784068
 20
-403.1369263098
 10
427.7162706452
 20
-398.7321961825
 10
425.8910381502
 20
-394.0882339353
 10
424.3008586293
 20
-389.2153974554
 10
422.9492618811
 20
-384.1245769027
 10
421.839271942
 20
-378.8271201882
 10
420.9733754761
 20
-373.3348451386
 10
420.3534901649
 20
-367.6600182002
 10
419.9809963178
 20
-361.8153004491
 10
419.8567474084
 20
-355.8137224973
  0
LWPOLYLINE
  5
E3
330
1F
100
AcDbEntity
  8
0
  6
Continuous
 62
     7
370
    25
100
AcDbPolyline
 90
      121
 70
   128
 43
0.0
 10
440.0799959724
 20
-344.1390896028
 10
440.2049086946
 20
-338.558509036
 10
440.5793096867
 20
-332.849000187
 10
441.202155814
 20
-327.0262231702
 10
442.0717612026
 20
-321.1061239739
 10
443.1857287505
 20
-315.1049382557
 10
444.5410080796
 20
-309.0391115001
 10
446.1338849988
 20
-302.925270119
 10
447.9599920409
 20
-296.7801743049
 10
450.0143242677
 20
-290.6206663201
 10
452.291255075
 20
-284.4636218293
 10
454.7845414607
 20
-278.3259255647
 10
457.4873503671
 20
-272.2243983242
 10
460.3922692171
 20
-266.175766554
 10
463.4913375248
 20
-260.1965984727
 10
466.7760627002
 20
-254.3032949471
 10
470.2374411228
 20
-248.5120043222
 10
473.8659897517
 20
-242.8385980897
 10
477.6517513938
 20
-237.2986313441
 10
481.5843579245
 20
-231.907281952
 10
485.6530302873
 20
-226.6793323004
 10
489.8466180066
 20
-221.629109985
 10
494.153620261
 20
-216.7704634766
 10
498.5622359329
 20
-212.1167028105
 10
503.0603820479
 20
-207.6805828573
 10
507.6357280184
 20
-203.4742653036
 10
512.2757325229
 20
-199.5092791109
 10
516.9676790669
 20
-195.7964878193
 10
521.6987062761
 20
-192.3460842271
 10
526.4558480679
 20
-189.1675002794
 10
531.2260646023
 20
-186.2694682889
 10
535.9962811367
 20
-183.6599255008
 10
540.7534229285
 20
-181.3460304464
 10
545.4844501377
 20
-179.3341062917
 10
550.1763966818
 20
-177.6296914121
 10
554.8164011862
 20
-176.2374424359
 10
559.3917471567
 20
-175.161177975
 10
563.8898932717
 20
-174.4038489695
 10
568.2985089436
 20
-173.9675303261
 10
572.605511198
 20
-173.8534178797
 10
576.7990989173
 20
-174.0618268754
 10
580.8677712801
 20
-174.5921874079
 10
584.8003778108
 20
-175.4430459468
 10
588.5861394529
 20
-176.6120653385
 10
592.2146880818
 20
-178.0960384988
 10
595.6760665044
 20
-179.8909066632
 10
598.9607916798
 20
-181.9917472262
 10
602.0598599875
 20
-184.3928072015
 10
604.9647788375
 20
-187.0874910582
 10
607.6675877439
 20
-190.0684215592
 10
610.1608741296
 20
-193.3274306374
 10
612.4378049369
 20
-196.8555867757
 10
614.4921371637
 20
-200.6432132582
 10
616.3182442058
 20
-204.6799307596
 10
617.911121125
 20
-208.954675596
 10
619.2664004541
 20
-213.4557301455
 10
620.380368002
 20
-218.1707563095
 10
621.2499733906
 20
-223.0868304954
 10
621.8728195179
 20
-228.1904846805
 10
622.24722051
 20
-233.4677193454
 10
622.3721332322
 20
-238.9040787529
 10
622.24722051
 20
-244.4846593197
 10
621.8728195179
 20
-250.1941681687
 10
621.2499733906
 20
-256.0169451854
 10
620.380368002
 20
-261.9370443818
 10
619.2664004541
 20
-267.9382300999
 10
617.911121125
 20
-274.0040568556
 10
616.3182442058
 20
-280.1178982367
 10
614.4921371637
 20
-286.2629940508
 10
612.4378049369
 20
-292.4225020356
 10
610.1608741296
 20
-298.5795465264
 10
607.6675877439
 20
-304.717242791
 10
604.9647788375
 20
-310.8187700315
 10
602.0598599875
 20
-316.8674018017
 10
598.9607916798
 20
-322.8465698829
 10
595.6760665044
 20
-328.7398734086
 10
592.2146880818
 20
-334.5311640335
 10
588.5861394529
 20
-340.204570266
 10
584.8003778108
 20
-345.7445370116
 10
580.8677712801
 20
-351.1358864037
 10
576.7990989173
 20
-356.3638360553
 10
572.605511198
 20
-361.4140583707
 10
568.2985089436
 20
-366.2727048791
 10
563.8898932717
 20
-370.9264655452
 10
559.3917471567
 20
-375.3625854983
 10
554.8164011862
 20
-379.5689030521
 10
550.1763966818
 20
-383.5338892448
 10
545.4844501377
 20
-387.2466805364
 10
540.7534229285
 20
-390.6970841286
 10
535.9962811367
 20
-393.8756680763
 10
531.2260646023
 20
-396.7737000668
 10
526.4558480679
 20
-399.3832428549
 10
521.6987062761
 20
-401.6971379093
 10
516.9676790669
 20
-403.7090620639
 10
512.2757325229
 20
-405.4134769436
 10
507.6357280184
 20
-406.8057259198
 10
503.0603820479
 20
-407.8819903807
 10
498.5622359329
 20
-408.6393193862
 10
494.153620261
 20
-409.0756380295
 10
489.8466180066
 20
-409.189750476
 10
485.6530302873
 20
-408.9813414802
 10
481.5843579245
 20
-408.4509809477
 10
477.6517513938
 20
-407.6001224089
 10
473.8659897517
 20
-406.4311030172
 10
470.2374411228
 20
-404.9471298569
 10
466.7760627002
 20
-403.1522616925
 10
463.4913375248
 20
-401.0514211295
 10
460.3922692171
 20
-398.6503611542
 10
457.4873503671
 20
-395.9556772975
 10
454.7845414607
 20
-392.9747467965
 10
452.291255075
 20
-389.7157377182
 10
450.0143242677
 20
-386.18758158
 10
447.9599920409
 20
-382.3999550974
 10
446.1338849988
 20
-378.3632375961
 10
444.5410080796
 20
-374.0884927596
 10
443.1857287505
 20
-369.5874382102
 10
442.0717612026
 20
-364.8724120462
 10
441.202155814
 20
-359.9563378603
 10
440.5793096867
 20
-354.8526836751
 10
440.2049086946
 20
-349.5754490103
 10
440.0799959724
 20
-344.1390896028
  0
ARC
  5
E4
330
1F
100
AcDbEntity
  8
0
  6
Continuous
 62
     7
370
    25
100
AcDbCircle
 10
689.1299211067
 20
-262.2260316378
 30
0.0
 40
53.18311879310212
100
AcDbArc
 50
47.8941466702
 51
59.9702373153
  0
ARC
  5
E5
330
1F
100
AcDbEntity
  8
0
  6
Continuous
 62
     7
370
    25
100
AcDbCircle
 10
584.8625757743
 20
-442.8232820774
 30
0.0
 40
53.28142965265053
100
AcDbArc
 50
240.0451148709
 51
252.3942127608
  0
ARC
  5
E6
330
1F
100
AcDbEntity
  8
0
  6
Continuous
 62
     7
370
    25
100
AcDbCircle
 10
675.4988853545
 20
-274.3122730786
 30
0.0
 40
71.45927300318785
100
AcDbArc
 50
14.9414397012
 51
41.631925997
  0
ARC
  5
E7
330
1F
100
AcDbEntity
  8
0
  6
Continuous
 62
     7
370
    25
100
AcDbCircle
 10
588.3619301983
 20
-424.9631003221
 30
0.0
 40
71.55313805912274
100
AcDbArc
 50
259.1612367475
 51
283.6770367361
  0
ARC
  5
E8
330
1F
100
AcDbEntity
  8
0
  6
Continuous
 62
     7
370
    25
100
AcDbCircle
 10
735.1365720176
 20
-340.3837697194
 30
0.0
 40
54.6354783059037
100
AcDbArc
 50
19.4793778485
 51
30.8900397297
  0
ARC
  5
E9
330
1F
100
AcDbEntity
  8
0
  6
Continuous
 62
     7
370
    25
100
AcDbCircle
 10
675.474748613
 20
-442.7728668965
 30
0.0
 40
55.5305893096846
100
AcDbArc
 50
269.1675130187
 51
282.7497466139
  0
LWPOLYLINE
  5
EA
330
1F
100
AcDbEntity
  8
0
  6
Continuous
 62
     7
370
    25
100
AcDbPolyline
 90
       58
 70
   128
 43
0.0
 10
852.636535232
 20
-347.1676056784
 10
852.6411081651
 20
-347.1702464347
 10
855.7065801662
 20
-349.1448569612
 10
858.5854206537
 20
-351.4197932734
 10
861.268578592
 20
-353.9879061709
 10
863.7476035378
 20
-356.8411126611
 10
866.0147035927
 20
-359.970435509
 10
868.062740134
 20
-363.3660275711
 10
869.8852752307
 20
-367.0172022189
 10
871.4765663747
 20
-370.9124789657
 10
872.8316138961
 20
-375.0395971596
 10
873.9461504265
 20
-379.3855722568
 10
874.8166672407
 20
-383.9367308052
 10
875.440430062
 20
-388.6787515113
 10
875.8154737935
 20
-393.5967161899
 10
875.9406183234
 20
-398.6751500711
 10
875.8154737935
 20
-403.898072751
 10
875.440430062
 20
-409.249053705
 10
874.8166672407
 20
-414.711255635
 10
873.9461504265
 20
-420.2674915035
 10
872.8316138961
 20
-425.900283088
 10
871.4765663747
 20
-431.5919058487
 10
869.8852752307
 20
-437.3244482431
 10
868.062740134
 20
-443.0798771232
 10
866.0147035927
 20
-448.8400818438
 10
863.7476035378
 20
-454.5869426991
 10
861.268578592
 20
-460.3023704677
 10
858.5854206537
 20
-465.9683915799
 10
855.7065801662
 20
-471.5671663691
 10
852.6411081651
 20
-477.0810955316
 10
849.3986510104
 20
-482.4928201255
 10
845.9894187761
 20
-487.7853067401
 10
842.4241272985
 20
-492.9419174529
 10
838.7140008102
 20
-497.9464143926
 10
834.8707087198
 20
-502.7830631559
 10
830.9063471729
 20
-507.4366373689
 10
826.8333890025
 20
-511.8925023332
 10
822.6646468505
 20
-516.1366302316
 10
818.4132376063
 20
-520.1556754107
 10
814.0925389433
 20
-523.9369873047
 10
809.7161458541
 20
-527.468665945
 10
805.2978271873
 20
-530.7396053025
 10
800.851484159
 20
-533.7395111549
 10
796.3911075473
 20
-536.4589440483
 10
791.9307309355
 20
-538.8893523734
 10
787.4843879072
 20
-541.0230849089
 10
783.0660692404
 20
-542.8534277002
 10
778.6896761512
 20
-544.3746249672
 10
774.3689774882
 20
-545.5818855648
 10
770.117568244
 20
-546.4714130171
 10
765.948826092
 20
-547.0404123571
 10
761.8758679216
 20
-547.2870848001
 10
757.9115063747
 20
-547.2106650016
 10
754.0682142843
 20
-546.8113868338
 10
750.358087796
 20
-546.0905107581
 10
746.7927963184
 20
-545.0502979653
 10
743.3835640841
 20
-543.6940271037
 10
740.1456798625
 20
-542.0286046108
  0
LWPOLYLINE
  5
EB
330
1F
100
AcDbEntity
  8
0
  6
Continuous
 62
     1
370
    25
100
AcDbPolyline
 90
       63
 70
   128
 43
0.0
 10
724.7893307278
 20
-222.7690851006
 10
726.4789610061
 20
-224.3586688817
 10
729.510562746
 20
-227.5734543223
 10
732.3357397587
 20
-231.0671886004
 10
734.9481910902
 20
-234.8320718173
 10
737.3420899388
 20
-238.8597079161
 10
739.5120836546
 20
-243.141110765
 10
741.4533464236
 20
-247.6667193716
 10
743.1615265836
 20
-252.4264495897
 10
744.6328309183
 20
-257.4096637084
 10
745.8639719735
 20
-262.6052525773
 10
746.8521891305
 20
-268.0016219202
 10
747.5952907533
 20
-273.5867288411
 10
748.0916120414
 20
-279.3481129993
 10
748.3400571766
 20
-285.2729112523
 10
748.3400571766
 20
-291.3479112643
 10
748.0916120414
 20
-297.5595581647
 10
747.5952907533
 20
-303.8939826846
 10
746.8521891305
 20
-310.3370564769
 10
745.8639719735
 20
-316.874397063
 10
744.6328309183
 20
-323.4914311379
 10
743.1615265836
 20
-330.1733770829
 10
741.4533464236
 20
-336.9053301338
 10
739.5120836546
 20
-343.6722730253
 10
737.3420899388
 20
-350.4590972891
 10
734.9481910902
 20
-357.2506701664
 10
732.3357397587
 20
-364.0318254876
 10
729.510562746
 20
-370.7874397135
 10
726.4789610061
 20
-377.5024380189
 10
723.2476938396
 20
-384.1618399191
 10
719.8239841629
 20
-390.7507744796
 10
716.2154658238
 20
-397.2545472318
 10
712.4301888704
 20
-403.6586432154
 10
708.4766037459
 20
-409.9487726046
 10
704.3635296782
 20
-416.1108950401
 10
700.1001441436
 20
-422.1312804653
 10
695.6959617933
 20
-427.996460454
 10
691.1608133795
 20
-433.6933863856
 10
686.5048088777
 20
-439.2093108088
 10
681.7383480226
 20
-444.5319517027
 10
676.8720623568
 20
-449.6494164255
 10
671.916807328
 20
-454.5502914477
 10
666.8836464839
 20
-459.2236514765
 10
661.7838066913
 20
-463.6590488054
 10
656.6286689163
 20
-467.8465916404
 10
651.4297352974
 20
-471.7769509417
 10
646.1986074131
 20
-475.4413364666
 10
640.9469582942
 20
-478.8315859314
 10
635.6865055876
 20
-481.9401318337
 10
630.4289880139
 20
-484.7600272105
 10
625.1861373788
 20
-487.2849982984
 10
619.9696509146
 20
-489.5093874954
 10
614.7911716881
 20
-491.4282498434
 10
609.66225057
 20
-493.0373019783
 10
604.5943370151
 20
-494.3329396199
 10
599.5987342814
 20
-495.3122877582
 10
594.6865954786
 20
-495.9731542647
 10
589.8688761532
 20
-496.3140694322
 10
585.1563316541
 20
-496.3342509931
 10
580.5594749857
 20
-496.0336892873
 10
576.0885583691
 20
-495.4130240658
 10
571.753565339
 20
-494.4736585589
 10
568.7467459459
 20
-493.6090160464
  0
LWPOLYLINE
  5
EC
330
1F
100
AcDbEntity
  8
0
  6
Continuous
 62
     1
370
    25
100
AcDbPolyline
 90
       25
 70
   128
 43
0.0
 10
546.749446966
 20
-386.2744966505
 10
547.4120797183
 20
-381.9177954402
 10
548.5260472663
 20
-375.9166097221
 10
549.8813265953
 20
-369.8507829664
 10
551.4742035145
 20
-363.7369415853
 10
553.3003105567
 20
-357.5918457712
 10
555.3546427835
 20
-351.4323377865
 10
557.6315735907
 20
-345.2752932956
 10
560.1248599765
 20
-339.137597031
 10
562.8276688828
 20
-333.0360697905
 10
565.7325877329
 20
-326.9874380203
 10
568.8316560406
 20
-321.0082699391
 10
572.116381216
 20
-315.1149664134
 10
575.5777596386
 20
-309.3236757885
 10
579.2063082674
 20
-303.650269556
 10
582.9920699096
 20
-298.1103028104
 10
586.9246764403
 20
-292.7189534183
 10
590.9933488031
 20
-287.4910037667
 10
595.1869365223
 20
-282.4407814513
 10
599.4939387767
 20
-277.5821349429
 10
603.9025544487
 20
-272.9283742768
 10
608.4007005636
 20
-268.4922543237
 10
612.9760465341
 20
-264.2859367699
 10
617.6160510386
 20
-260.3209505772
 10
621.0430007543
 20
-257.5803387817
  0
LWPOLYLINE
  5
ED
330
1F
100
AcDbEntity
  8
0
  6
Continuous
 62
     1
370
    25
100
AcDbPolyline
 90
       47
 70
   128
 43
0.0
 10
744.5421098269
 20
-255.8878096508
 10
745.0794083884
 20
-257.8289841829
 10
746.3092850381
 20
-263.0192344837
 10
747.2964906708
 20
-268.41006452
 10
748.0388231136
 20
-273.9894405204
 10
748.5346386395
 20
-279.7449067089
 10
748.7828203569
 20
-285.6636265572
 10
748.7828203569
 20
-291.7323892527
 10
748.5346386395
 20
-297.9376536127
 10
748.0388231136
 20
-304.2655762223
 10
747.2964906708
 20
-310.7020310178
 10
746.3092850381
 20
-317.2326644161
 10
745.0794083884
 20
-323.8429000714
 10
743.6096213403
 20
-330.5179837417
 10
741.9031902745
 20
-337.2430258699
 10
739.9639294808
 20
-344.0030183185
 10
737.7961590112
 20
-350.7828769508
 10
735.4047152166
 20
-357.5674781347
 10
732.7949402099
 20
-364.3416739506
 10
729.9726607931
 20
-371.0903530268
 10
726.9441779199
 20
-377.7984527055
 10
723.7162298178
 20
-384.4510168349
 10
720.2960341346
 20
-391.0331836054
 10
716.6912194498
 20
-397.5302798409
 10
712.9098305432
 20
-403.9277997062
 10
708.9603020528
 20
-410.211474667
 10
704.8514532067
 20
-416.3672704478
 10
700.592445676
 20
-422.3814661158
 10
696.1927835752
 20
-428.2406419137
 10
691.6622923882
 20
-433.9317035925
 10
687.0110715536
 20
-439.4419706206
 10
682.249499733
 20
-444.7591488079
 10
677.3882111029
 20
-449.8713561592
 10
672.4380479403
 20
-454.7671989157
 10
667.4100527193
 20
-459.4357639502
 10
662.3154496726
 20
-463.8666050768
 10
657.1656039613
 20
-468.0498517931
 10
651.9720085042
 20
-471.9761682141
 10
646.7462517089
 20
-475.6367960354
 10
641.4999940938
 20
-479.0235680291
 10
636.2449426046
 20
-482.1289228704
 10
630.9928232849
 20
-484.9459209149
 10
625.7553542755
 20
-487.4682962874
 10
620.5442244123
 20
-489.6904084007
 10
615.3710622742
 20
-491.6072963255
 10
610.247406878
 20
-493.2146957082
 10
605.2805799051
 20
-494.4872749537
  0
LWPOLYLINE
  5
EE
330
1F
100
AcDbEntity
  8
0
  6
Continuous
 62
     1
370
    25
100
AcDbPolyline
 90
       41
 70
   128
 43
0.0
 10
786.6448016114
 20
-322.1646101936
 10
787.8218682599
 20
-325.8011005737
 10
788.9380063706
 20
-330.1533222634
 10
789.8097770535
 20
-334.7110209104
 10
790.4344354953
 20
-339.4598592503
 10
790.8100165991
 20
-344.3848940029
 10
790.9353455215
 20
-349.4706253032
 10
790.8100165991
 20
-354.7010582974
 10
790.4344354953
 20
-360.0597297622
 10
789.8097770535
 20
-365.5297833874
 10
788.9380063706
 20
-371.0940070405
 10
787.8218682599
 20
-376.7348943627
 10
786.4648714468
 20
-382.4346995212
 10
784.8712938362
 20
-388.175479035
 10
783.0461403665
 20
-393.9391815057
 10
780.9951588142
 20
-399.7076689118
 10
778.7248029153
 20
-405.4627880886
 10
776.2422112924
 20
-411.1864346054
 10
773.5551969175
 20
-416.8605953505
 10
770.6722155021
 20
-422.4674245742
 10
767.6023391553
 20
-427.9892743048
 10
764.3552247739
 20
-433.4087734343
 10
760.9410877001
 20
-438.7088733432
 10
757.3706753804
 20
-443.8728935259
 10
753.6552146816
 20
-448.8845885068
 10
749.8063987199
 20
-453.7281858616
 10
745.8363368117
 20
-458.3884516132
 10
741.7575228635
 20
-462.8507206465
 10
737.5827905906
 20
-467.1009468952
 10
733.3252700535
 20
-471.1257710189
 10
728.9983613157
 20
-474.9125173585
 10
724.6156778094
 20
-478.4492753006
 10
720.1910074808
 20
-481.724915624
 10
715.7382732781
 20
-484.7291315605
 10
711.271485077
 20
-487.4524787152
 10
706.8046968759
 20
-489.8863754425
 10
702.3519626731
 20
-492.0231769868
 10
697.9272923446
 20
-493.8561522848
 10
693.5446088383
 20
-495.379533011
 10
689.2177001005
 20
-496.5885291627
 10
687.7299677145
 20
-496.9342549312
  0
LWPOLYLINE
  5
EF
330
1F
100
AcDbEntity
  8
0
  6
Continuous
 62
     1
370
    25
100
AcDbPolyline
 90
       25
 70
   128
 43
0.0
 10
548.7554947095
 20
-384.6892994587
 10
549.084419252
 20
-382.6290036488
 10
550.1948886115
 20
-376.6466405799
 10
551.5459163773
 20
-370.5998402069
 10
553.1337988949
 20
-364.5051741894
 10
554.954179234
 20
-358.3793510094
 10
557.0020682614
 20
-352.2391612194
 10
559.2718604462
 20
-346.1014287743
 10
561.7573233231
 20
-339.9829836541
 10
564.4516554446
 20
-333.9005919064
 10
567.347465307
 20
-327.8709252261
 10
570.4368134978
 20
-321.9105153313
 10
573.7112390371
 20
-316.0356961712
 10
577.1617593778
 20
-310.2625674231
 10
580.7789230892
 20
-304.6069579958
 10
584.5528151252
 20
-299.0843621508
 10
588.4730884343
 20
-293.7099212543
 10
592.5290008387
 20
-288.498372069
 10
596.7094334729
 20
-283.4639874403
 10
601.0029276623
 20
-278.6205793408
 10
605.3977165338
 20
-273.981413702
 10
609.8817539912
 20
-269.559205854
 10
614.4427489598
 20
-265.3660825058
 10
619.0682022648
 20
-261.4135361206
 10
620.6734400644
 20
-260.1102708402
  0
LWPOLYLINE
  5
F0
330
1F
100
AcDbEntity
  8
0
  6
Continuous
 62
     1
370
    25
100
AcDbPolyline
 90
       49
 70
   128
 43
0.0
 10
780.3232827312
 20
-309.5241994492
 10
781.4521649951
 20
-311.1535210739
 10
783.5002015364
 20
-314.549113136
 10
785.3227366332
 20
-318.2002877838
 10
786.9140277772
 20
-322.0955645305
 10
788.2690752986
 20
-326.2226827244
 10
789.383611829
 20
-330.5686578216
 10
790.2541286432
 20
-335.1198163701
 10
790.8778914644
 20
-339.8618370762
 10
791.2529351959
 20
-344.7798017548
 10
791.3780797259
 20
-349.858235636
 10
791.2529351959
 20
-355.0811583159
 10
790.8778914644
 20
-360.4321392699
 10
790.2541286432
 20
-365.8943411999
 10
789.383611829
 20
-371.4505770684
 10
788.2690752986
 20
-377.0833686529
 10
786.9140277772
 20
-382.7749914136
 10
785.3227366332
 20
-388.5075338079
 10
783.5002015364
 20
-394.2629626881
 10
781.4521649951
 20
-400.0231674087
 10
779.1850649403
 20
-405.770028264
 10
776.7060399944
 20
-411.4854560326
 10
774.0228820562
 20
-417.1514771448
 10
771.1440415686
 20
-422.750251934
 10
768.0785695675
 20
-428.2641810964
 10
764.8361124128
 20
-433.6759056903
 10
761.4268801786
 20
-438.968392305
 10
757.861588701
 20
-444.1250030178
 10
754.1514622127
 20
-449.1294999575
 10
750.3081701223
 20
-453.9661487207
 10
746.3438085754
 20
-458.6197229337
 10
742.270850405
 20
-463.075587898
 10
738.1021082529
 20
-467.3197157965
 10
733.8506990088
 20
-471.3387609756
 10
729.5300003457
 20
-475.1200728696
 10
725.1536072565
 20
-478.6517515099
 10
720.7352885898
 20
-481.9226908674
 10
716.2889455615
 20
-484.9225967198
 10
711.8285689497
 20
-487.6420296131
 10
707.3681923379
 20
-490.0724379382
 10
702.9218493097
 20
-492.2061704738
 10
698.5035306429
 20
-494.0365132651
 10
694.1271375537
 20
-495.5577105321
 10
689.8064388906
 20
-496.7649711297
 10
685.5550296465
 20
-497.6544985819
 10
681.3862874945
 20
-498.223497922
 10
677.313329324
 20
-498.4701703649
 10
673.3489677771
 20
-498.3937505665
 10
671.3847955618
 20
-498.2316378568
  0
ENDSEC
  0
SECTION
  2
OBJECTS
  0
DICTIONARY
  5
C
330
0
100
AcDbDictionary
281
     1
  3
ACAD_GROUP
350
D
  3
ACAD_LAYOUT
350
1A
  3
ACAD_MLINESTYLE
350
17
  3
ACAD_PLOTSETTINGS
350
19
  3
ACAD_PLOTSTYLENAME
350
E
  3
ACAD_SCALELIST
350
47
  0
DICTIONARY
  5
D
102
{ACAD_REACTORS
330
C
102
}
330
C
100
AcDbDictionary
281
     1
  0
DICTIONARY
  5
1A
102
{ACAD_REACTORS
330
C
102
}
330
C
100
AcDbDictionary
281
     1
  3
Layout1
350
1E
  3
Layout2
350
26
  3
Model
350
22
  0
DICTIONARY
  5
17
102
{ACAD_REACTORS
330
C
102
}
330
C
100
AcDbDictionary
281
     1
  3
Standard
350
18
  0
DICTIONARY
  5
19
102
{ACAD_REACTORS
330
C
102
}
330
C
100
AcDbDictionary
281
     1
  0
ACDBDICTIONARYWDFLT
  5
E
102
{ACAD_REACTORS
330
C
102
}
330
C
100
AcDbDictionary
281
     1
  3
Normal
350
F
100
AcDbDictionaryWithDefault
340
F
  0
DICTIONARY
  5
47
102
{ACAD_REACTORS
330
C
102
}
330
C
100
AcDbDictionary
281
     1
  3
A0
350
48
  3
A1
350
49
  3
A2
350
4A
  3
A3
350
4B
  3
A4
350
4C
  3
A5
350
4D
  3
A6
350
4E
  3
A7
350
4F
  3
A8
350
50
  3
A9
350
51
  3
B0
350
52
  3
B1
350
53
  3
B2
350
54
  3
B3
350
55
  3
B4
350
56
  3
B5
350
57
  3
B6
350
58
  3
B7
350
59
  3
B8
350
5A
  3
B9
350
5B
  3
C0
350
5C
  3
C1
350
5D
  3
C2
350
5E
  3
C3
350
5F
  3
C4
350
60
  3
C5
350
61
  3
C6
350
62
  3
C7
350
63
  3
C8
350
64
  3
C9
350
65
  3
D0
350
66
  3
D1
350
67
  3
D2
350
68
  0
LAYOUT
  5
1E
102
{ACAD_REACTORS
330
1A
102
}
330
1A
100
AcDbPlotSettings
  1

  2
none_device
  4

  6

 40
0.0
 41
0.0
 42
0.0
 43
0.0
 44
0.0
 45
0.0
 46
0.0
 47
0.0
 48
0.0
 49
0.0
140
0.0
141
0.0
142
1.0
143
1.0
 70
   688
 72
     1
 73
     0
 74
     5
  7

 75
    16
147
1.0
148
0.0
149
0.0
100
AcDbLayout
  1
Layout1
 70
     1
 71
     1
 10
0.0
 20
0.0
 11
420.0
 21
297.0
 12
0.0
 22
0.0
 32
0.0
 14
1.0000000000E+20
 24
1.0000000000E+20
 34
1.0000000000E+20
 15
-1.0000000000E+20
 25
-1.0000000000E+20
 35
-1.0000000000E+20
146
0.0
 13
0.0
 23
0.0
 33
0.0
 16
1.0
 26
0.0
 36
0.0
 17
0.0
 27
1.0
 37
0.0
 76
     0
330
1B
  0
LAYOUT
  5
26
102
{ACAD_REACTORS
330
1A
102
}
330
1A
100
AcDbPlotSettings
  1

  2
none_device
  4

  6

 40
0.0
 41
0.0
 42
0.0
 43
0.0
 44
0.0
 45
0.0
 46
0.0
 47
0.0
 48
0.0
 49
0.0
140
0.0
141
0.0
142
1.0
143
1.0
 70
   688
 72
     1
 73
     0
 74
     5
  7

 75
    16
147
1.0
148
0.0
149
0.0
100
AcDbLayout
  1
Layout2
 70
     1
 71
     2
 10
0.0
 20
0.0
 11
0.0
 21
0.0
 12
0.0
 22
0.0
 32
0.0
 14
0.0
 24
0.0
 34
0.0
 15
0.0
 25
0.0
 35
0.0
146
0.0
 13
0.0
 23
0.0
 33
0.0
 16
1.0
 26
0.0
 36
0.0
 17
0.0
 27
1.0
 37
0.0
 76
     0
330
23
  0
LAYOUT
  5
22
102
{ACAD_REACTORS
330
1A
102
}
330
1A
100
AcDbPlotSettings
  1

  2
none_device
  4
Letter_(8.50_x_11.00_Inches)
  6

 40
6.35
 41
6.35
 42
6.35000508
 43
6.35000508
 44
215.9
 45
279.4
 46
0.0
 47
0.0
 48
0.0
 49
0.0
140
0.0
141
0.0
142
1.0
143
1.0
 70
  1712
 72
     1
 73
     0
 74
     0
  7

 75
     0
147
1.0
148
0.0
149
0.0
100
AcDbLayout
  1
Model
 70
     1
 71
     0
 10
0.0
 20
0.0
 11
279.4
 21
215.9
 12
0.0
 22
0.0
 32
0.0
 14
0.0
 24
0.0
 34
0.0
 15
279.4
 25
215.9
 35
0.0
146
0.0
 13
0.0
 23
0.0
 33
0.0
 16
1.0
 26
0.0
 36
0.0
 17
0.0
 27
1.0
 37
0.0
 76
     0
330
1F
331
29
  0
MLINESTYLE
  5
18
102
{ACAD_REACTORS
330
17
102
}
330
17
100
AcDbMlineStyle
  2
Standard
 70
     0
  3

 62
   256
 51
90.0
 52
90.0
 71
     2
 49
0.5
 62
   256
  6
BYLAYER
 49
-0.5
 62
   256
  6
BYLAYER
  0
ACDBPLACEHOLDER
  5
F
102
{ACAD_REACTORS
330
E
102
}
330
E
  0
SCALE
  5
48
102
{ACAD_REACTORS
330
47
102
}
330
47
100
AcDbScale
 70
     0
300
1:1
140
1.0
141
1.0
290
     1
  0
SCALE
  5
49
102
{ACAD_REACTORS
330
47
102
}
330
47
100
AcDbScale
 70
     0
300
1:2
140
1.0
141
2.0
290
     0
  0
SCALE
  5
4A
102
{ACAD_REACTORS
330
47
102
}
330
47
100
AcDbScale
 70
     0
300
1:4
140
1.0
141
4.0
290
     0
  0
SCALE
  5
4B
102
{ACAD_REACTORS
330
47
102
}
330
47
100
AcDbScale
 70
     0
300
1:5
140
1.0
141
5.0
290
     0
  0
SCALE
  5
4C
102
{ACAD_REACTORS
330
47
102
}
330
47
100
AcDbScale
 70
     0
300
1:8
140
1.0
141
8.0
290
     0
  0
SCALE
  5
4D
102
{ACAD_REACTORS
330
47
102
}
330
47
100
AcDbScale
 70
     0
300
1:10
140
1.0
141
10.0
290
     0
  0
SCALE
  5
4E
102
{ACAD_REACTORS
330
47
102
}
330
47
100
AcDbScale
 70
     0
300
1:16
140
1.0
141
16.0
290
     0
  0
SCALE
  5
4F
102
{ACAD_REACTORS
330
47
102
}
330
47
100
AcDbScale
 70
     0
300
1:20
140
1.0
141
20.0
290
     0
  0
SCALE
  5
50
102
{ACAD_REACTORS
330
47
102
}
330
47
100
AcDbScale
 70
     0
300
1:30
140
1.0
141
30.0
290
     0
  0
SCALE
  5
51
102
{ACAD_REACTORS
330
47
102
}
330
47
100
AcDbScale
 70
     0
300
1:40
140
1.0
141
40.0
290
     0
  0
SCALE
  5
52
102
{ACAD_REACTORS
330
47
102
}
330
47
100
AcDbScale
 70
     0
300
1:50
140
1.0
141
50.0
290
     0
  0
SCALE
  5
53
102
{ACAD_REACTORS
330
47
102
}
330
47
100
AcDbScale
 70
     0
300
1:100
140
1.0
141
100.0
290
     0
  0
SCALE
  5
54
102
{ACAD_REACTORS
330
47
102
}
330
47
100
AcDbScale
 70
     0
300
2:1
140
2.0
141
1.0
290
     0
  0
SCALE
  5
55
102
{ACAD_REACTORS
330
47
102
}
330
47
100
AcDbScale
 70
     0
300
4:1
140
4.0
141
1.0
290
     0
  0
SCALE
  5
56
102
{ACAD_REACTORS
330
47
102
}
330
47
100
AcDbScale
 70
     0
300
8:1
140
8.0
141
1.0
290
     0
  0
SCALE
  5
57
102
{ACAD_REACTORS
330
47
102
}
330
47
100
AcDbScale
 70
     0
300
10:1
140
10.0
141
1.0
290
     0
  0
SCALE
  5
58
102
{ACAD_REACTORS
330
47
102
}
330
47
100
AcDbScale
 70
     0
300
100:1
140
100.0
141
1.0
290
     0
  0
SCALE
  5
59
102
{ACAD_REACTORS
330
47
102
}
330
47
100
AcDbScale
 70
     0
300
1/128" = 1'-0"
140
0.0078125
141
12.0
290
     0
  0
SCALE
  5
5A
102
{ACAD_REACTORS
330
47
102
}
330
47
100
AcDbScale
 70
     0
300
1/64" = 1'-0"
140
0.015625
141
12.0
290
     0
  0
SCALE
  5
5B
102
{ACAD_REACTORS
330
47
102
}
330
47
100
AcDbScale
 70
     0
300
1/32" = 1'-0"
140
0.03125
141
12.0
290
     0
  0
SCALE
  5
5C
102
{ACAD_REACTORS
330
47
102
}
330
47
100
AcDbScale
 70
     0
300
1/16" = 1'-0"
140
0.0625
141
12.0
290
     0
  0
SCALE
  5
5D
102
{ACAD_REACTORS
330
47
102
}
330
47
100
AcDbScale
 70
     0
300
3/32" = 1'-0"
140
0.09375
141
12.0
290
     0
  0
SCALE
  5
5E
102
{ACAD_REACTORS
330
47
102
}
330
47
100
AcDbScale
 70
     0
300
1/8" = 1'-0"
140
0.125
141
12.0
290
     0
  0
SCALE
  5
5F
102
{ACAD_REACTORS
330
47
102
}
330
47
100
AcDbScale
 70
     0
300
3/16" = 1'-0"
140
0.1875
141
12.0
290
     0
  0
SCALE
  5
60
102
{ACAD_REACTORS
330
47
102
}
330
47
100
AcDbScale
 70
     0
300
1/4" = 1'-0"
140
0.25
141
12.0
290
     0
  0
SCALE
  5
61
102
{ACAD_REACTORS
330
47
102
}
330
47
100
AcDbScale
 70
     0
300
3/8" = 1'-0"
140
0.375
141
12.0
290
     0
  0
SCALE
  5
62
102
{ACAD_REACTORS
330
47
102
}
330
47
100
AcDbScale
 70
     0
300
1/2" = 1'-0"
140
0.5
141
12.0
290
     0
  0
SCALE
  5
63
102
{ACAD_REACTORS
330
47
102
}
330
47
100
AcDbScale
 70
     0
300
3/4" = 1'-0"
140
0.75
141
12.0
290
     0
  0
SCALE
  5
64
102
{ACAD_REACTORS
330
47
102
}
330
47
100
AcDbScale
 70
     0
300
1" = 1'-0"
140
1.0
141
12.0
290
     0
  0
SCALE
  5
65
102
{ACAD_REACTORS
330
47
102
}
330
47
100
AcDbScale
 70
     0
300
1-1/2" = 1'-0"
140
1.5
141
12.0
290
     0
  0
SCALE
  5
66
102
{ACAD_REACTORS
330
47
102
}
330
47
100
AcDbScale
 70
     0
300
3" = 1'-0"
140
3.0
141
12.0
290
     0
  0
SCALE
  5
67
102
{ACAD_REACTORS
330
47
102
}
330
47
100
AcDbScale
 70
     0
300
6" = 1'-0"
140
6.0
141
12.0
290
     0
  0
SCALE
  5
68
102
{ACAD_REACTORS
330
47
102
}
330
47
100
AcDbScale
 70
     0
300
1'-0" = 1'-0"
140
12.0
141
12.0
290
     0
  0
ENDSEC
  0
EOF
